ISO-10303-21;
HEADER;
FILE_DESCRIPTION (( 'STEP AP203' ),
    '1' );
FILE_NAME ('Q-AZHWP-25.4-980-M.STEP',
    '2020-12-22T09:10:33',
    ( '' ),
    ( '' ),
    'SwSTEP 2.0',
    'SolidWorks 2020',
    '' );
FILE_SCHEMA (( 'CONFIG_CONTROL_DESIGN' ));
ENDSEC;

DATA;
#1 = DIRECTION ( 'NONE',  ( -1.000000000000000000, 0.000000000000000000, -0.000000000000000000 ) ) ;
#2 = DIRECTION ( 'NONE',  ( 0.000000000000000000, 0.000000000000000000, 1.000000000000000000 ) ) ;
#3 = DESIGN_CONTEXT ( 'detailed design', #29, 'design' ) ;
#4 = DIRECTION ( 'NONE',  ( 0.000000000000000000, 0.000000000000000000, -1.000000000000000000 ) ) ;
#5 = ORIENTED_EDGE ( 'NONE', *, *, #175, .T. ) ;
#6 = MECHANICAL_CONTEXT ( 'NONE', #155, 'mechanical' ) ;
#7 = APPROVAL_ROLE ( '' ) ;
#8 = SECURITY_CLASSIFICATION_LEVEL ( 'unclassified' ) ;
#9 = APPROVAL_DATE_TIME ( #170, #123 ) ;
#10 = COORDINATED_UNIVERSAL_TIME_OFFSET ( 8, 0, .AHEAD. ) ;
#11 = CIRCLE ( 'NONE', #118, 15.00000000000000000 ) ;
#12 = EDGE_LOOP ( 'NONE', ( #104, #27 ) ) ;
#13 = ORIENTED_EDGE ( 'NONE', *, *, #110, .F. ) ;
#14 = ADVANCED_FACE ( 'NONE', ( #16 ), #132, .F. ) ;
#15 = CARTESIAN_POINT ( 'NONE',  ( -1.614212418857619014, 0.000000000000000000, 15.00000000000000000 ) ) ;
#16 = FACE_OUTER_BOUND ( 'NONE', #102, .T. ) ;
#17 = DIRECTION ( 'NONE',  ( -1.000000000000000000, -0.000000000000000000, -0.000000000000000000 ) ) ;
#18 = CC_DESIGN_APPROVAL ( #82, ( #80 ) ) ;
#19 = CYLINDRICAL_SURFACE ( 'NONE', #90, 15.00000000000000000 ) ;
#20 = ORGANIZATION ( 'UNSPECIFIED', 'UNSPECIFIED', '' ) ;
#21 = APPROVAL ( #116, 'UNSPECIFIED' ) ;
#22 = DATE_TIME_ROLE ( 'creation_date' ) ;
#23 = AXIS2_PLACEMENT_3D ( 'NONE', #161, #87, #4 ) ;
#24 = PERSON_AND_ORGANIZATION ( #109, #20 ) ;
#25 = CIRCLE ( 'NONE', #137, 15.00000000000000000 ) ;
#26 = CALENDAR_DATE ( 2020, 22, 12 ) ;
#27 = ORIENTED_EDGE ( 'NONE', *, *, #110, .T. ) ;
#28 = LOCAL_TIME ( 17, 10, 33.00000000000000000, #10 ) ;
#29 = APPLICATION_CONTEXT ( 'configuration controlled 3d designs of mechanical parts and assemblies' ) ;
#30 = DIRECTION ( 'NONE',  ( 0.000000000000000000, 0.000000000000000000, 1.000000000000000000 ) ) ;
#31 = DIRECTION ( 'NONE',  ( 0.000000000000000000, 0.000000000000000000, 1.000000000000000000 ) ) ;
#32 = DIRECTION ( 'NONE',  ( -1.000000000000000000, -0.000000000000000000, -0.000000000000000000 ) ) ;
#33 = PRODUCT_DEFINITION_SHAPE ( 'NONE', 'NONE',  #169 ) ;
#34 =( NAMED_UNIT ( * ) SI_UNIT ( $, .STERADIAN. ) SOLID_ANGLE_UNIT ( ) );
#35 = PRODUCT_RELATED_PRODUCT_CATEGORY ( 'detail', '', ( #140 ) ) ;
#36 = COORDINATED_UNIVERSAL_TIME_OFFSET ( 8, 0, .AHEAD. ) ;
#37 = DATE_TIME_ROLE ( 'classification_date' ) ;
#38 = DATE_AND_TIME ( #124, #173 ) ;
#39 = ORIENTED_EDGE ( 'NONE', *, *, #175, .F. ) ;
#40 = CC_DESIGN_PERSON_AND_ORGANIZATION_ASSIGNMENT ( #52, #114, ( #66 ) ) ;
#41 = AXIS2_PLACEMENT_3D ( 'NONE', #165, #32, #31 ) ;
#42 = CARTESIAN_POINT ( 'NONE',  ( 3.000000000000000000, 0.000000000000000000, 0.000000000000000000 ) ) ;
#43 = UNCERTAINTY_MEASURE_WITH_UNIT (LENGTH_MEASURE( 1.000000000000000082E-05 ), #71, 'distance_accuracy_value', 'NONE');
#44 = CARTESIAN_POINT ( 'NONE',  ( -1.614212418857619014, 1.836970198721029589E-15, -15.00000000000000000 ) ) ;
#45 = VERTEX_POINT ( 'NONE', #92 ) ;
#46 = EDGE_LOOP ( 'NONE', ( #54, #5, #81, #83 ) ) ;
#47 = APPROVAL_PERSON_ORGANIZATION ( #24, #82, #7 ) ;
#48 = DIRECTION ( 'NONE',  ( 0.000000000000000000, 0.000000000000000000, 1.000000000000000000 ) ) ;
#49 = PERSON_AND_ORGANIZATION ( #109, #20 ) ;
#50 = ADVANCED_BREP_SHAPE_REPRESENTATION ( 'Q-AZHWP-25.4-980-M', ( #72, #84 ), #159 ) ;
#51 = PERSON_AND_ORGANIZATION ( #109, #20 ) ;
#52 = PERSON_AND_ORGANIZATION ( #109, #20 ) ;
#53 = APPROVAL_ROLE ( '' ) ;
#54 = ORIENTED_EDGE ( 'NONE', *, *, #128, .T. ) ;
#55 = EDGE_LOOP ( 'NONE', ( #39, #117, #157, #13 ) ) ;
#56 = DIRECTION ( 'NONE',  ( -1.000000000000000000, -0.000000000000000000, -0.000000000000000000 ) ) ;
#57 = CC_DESIGN_PERSON_AND_ORGANIZATION_ASSIGNMENT ( #95, #141, ( #140 ) ) ;
#58 = CARTESIAN_POINT ( 'NONE',  ( 3.000000000000000000, 0.000000000000000000, 15.00000000000000000 ) ) ;
#59 = DIRECTION ( 'NONE',  ( -1.000000000000000000, -0.000000000000000000, -0.000000000000000000 ) ) ;
#60 = VERTEX_POINT ( 'NONE', #94 ) ;
#61 = PERSON_AND_ORGANIZATION ( #109, #20 ) ;
#62 = CC_DESIGN_PERSON_AND_ORGANIZATION_ASSIGNMENT ( #61, #125, ( #80 ) ) ;
#63 = COORDINATED_UNIVERSAL_TIME_OFFSET ( 8, 0, .AHEAD. ) ;
#64 = CC_DESIGN_APPROVAL ( #21, ( #66 ) ) ;
#65 = CC_DESIGN_PERSON_AND_ORGANIZATION_ASSIGNMENT ( #154, #112, ( #169 ) ) ;
#66 = PRODUCT_DEFINITION_FORMATION_WITH_SPECIFIED_SOURCE ( 'ANY', '', #140, .NOT_KNOWN. ) ;
#67 = VERTEX_POINT ( 'NONE', #58 ) ;
#68 = LINE ( 'NONE', #15, #98 ) ;
#69 = APPROVAL_PERSON_ORGANIZATION ( #51, #123, #115 ) ;
#70 = DIRECTION ( 'NONE',  ( -1.000000000000000000, -0.000000000000000000, -0.000000000000000000 ) ) ;
#71 =( LENGTH_UNIT ( ) NAMED_UNIT ( * ) SI_UNIT ( .MILLI., .METRE. ) );
#72 = MANIFOLD_SOLID_BREP ( 'Ðý×', #145 ) ;
#73 = PERSON_AND_ORGANIZATION ( #109, #20 ) ;
#74 = APPROVAL_STATUS ( 'not_yet_approved' ) ;
#75 = CARTESIAN_POINT ( 'NONE',  ( 0.000000000000000000, 0.000000000000000000, 0.000000000000000000 ) ) ;
#76 = AXIS2_PLACEMENT_3D ( 'NONE', #134, #146, #30 ) ;
#77 = SHAPE_DEFINITION_REPRESENTATION ( #33, #50 ) ;
#78 = EDGE_CURVE ( 'NONE', #45, #130, #156, .T. ) ;
#79 = CC_DESIGN_DATE_AND_TIME_ASSIGNMENT ( #171, #22, ( #169 ) ) ;
#80 = SECURITY_CLASSIFICATION ( '', '', #8 ) ;
#81 = ORIENTED_EDGE ( 'NONE', *, *, #78, .F. ) ;
#82 = APPROVAL ( #111, 'UNSPECIFIED' ) ;
#83 = ORIENTED_EDGE ( 'NONE', *, *, #85, .F. ) ;
#84 = AXIS2_PLACEMENT_3D ( 'NONE', #75, #89, #138 ) ;
#85 = EDGE_CURVE ( 'NONE', #67, #45, #68, .T. ) ;
#86 = FACE_OUTER_BOUND ( 'NONE', #46, .T. ) ;
#87 = DIRECTION ( 'NONE',  ( 1.000000000000000000, 0.000000000000000000, 0.000000000000000000 ) ) ;
#88 = FACE_OUTER_BOUND ( 'NONE', #12, .T. ) ;
#89 = DIRECTION ( 'NONE',  ( 0.000000000000000000, 0.000000000000000000, 1.000000000000000000 ) ) ;
#90 = AXIS2_PLACEMENT_3D ( 'NONE', #120, #131, #48 ) ;
#91 = ORIENTED_EDGE ( 'NONE', *, *, #142, .F. ) ;
#92 = CARTESIAN_POINT ( 'NONE',  ( -3.000000000000000000, 0.000000000000000000, 15.00000000000000000 ) ) ;
#93 = AXIS2_PLACEMENT_3D ( 'NONE', #105, #56, #122 ) ;
#94 = CARTESIAN_POINT ( 'NONE',  ( 3.000000000000000000, 1.836970198721029589E-15, -15.00000000000000000 ) ) ;
#95 = PERSON_AND_ORGANIZATION ( #109, #20 ) ;
#96 = APPROVAL_DATE_TIME ( #99, #82 ) ;
#97 = COORDINATED_UNIVERSAL_TIME_OFFSET ( 8, 0, .AHEAD. ) ;
#98 = VECTOR ( 'NONE', #70, 1000.000000000000000 ) ;
#99 = DATE_AND_TIME ( #26, #166 ) ;
#100 = LOCAL_TIME ( 17, 10, 33.00000000000000000, #97 ) ;
#101 = AXIS2_PLACEMENT_3D ( 'NONE', #106, #1, #163 ) ;
#102 = EDGE_LOOP ( 'NONE', ( #158, #91 ) ) ;
#103 = ADVANCED_FACE ( 'NONE', ( #107 ), #149, .T. ) ;
#104 = ORIENTED_EDGE ( 'NONE', *, *, #78, .T. ) ;
#105 = CARTESIAN_POINT ( 'NONE',  ( -1.614212418857619014, 0.000000000000000000, 0.000000000000000000 ) ) ;
#106 = CARTESIAN_POINT ( 'NONE',  ( 3.000000000000000888, 12.69999999999999929, 0.000000000000000000 ) ) ;
#107 = FACE_OUTER_BOUND ( 'NONE', #55, .T. ) ;
#108 = LINE ( 'NONE', #44, #113 ) ;
#109 = PERSON ( 'UNSPECIFIED', 'UNSPECIFIED', 'UNSPECIFIED', ('UNSPECIFIED'), ('UNSPECIFIED'), ('UNSPECIFIED') ) ;
#110 = EDGE_CURVE ( 'NONE', #130, #45, #164, .T. ) ;
#111 = APPROVAL_STATUS ( 'not_yet_approved' ) ;
#112 = PERSON_AND_ORGANIZATION_ROLE ( 'creator' ) ;
#113 = VECTOR ( 'NONE', #59, 1000.000000000000000 ) ;
#114 = PERSON_AND_ORGANIZATION_ROLE ( 'creator' ) ;
#115 = APPROVAL_ROLE ( '' ) ;
#116 = APPROVAL_STATUS ( 'not_yet_approved' ) ;
#117 = ORIENTED_EDGE ( 'NONE', *, *, #142, .T. ) ;
#118 = AXIS2_PLACEMENT_3D ( 'NONE', #42, #167, #135 ) ;
#119 = CARTESIAN_POINT ( 'NONE',  ( -3.000000000000000000, 1.836970198721029589E-15, -15.00000000000000000 ) ) ;
#120 = CARTESIAN_POINT ( 'NONE',  ( -1.614212418857619014, 0.000000000000000000, 0.000000000000000000 ) ) ;
#121 = CARTESIAN_POINT ( 'NONE',  ( 3.000000000000000000, 0.000000000000000000, 0.000000000000000000 ) ) ;
#122 = DIRECTION ( 'NONE',  ( 0.000000000000000000, 0.000000000000000000, 1.000000000000000000 ) ) ;
#123 = APPROVAL ( #74, 'UNSPECIFIED' ) ;
#124 = CALENDAR_DATE ( 2020, 22, 12 ) ;
#125 = PERSON_AND_ORGANIZATION_ROLE ( 'classification_officer' ) ;
#126 = APPROVAL_DATE_TIME ( #38, #21 ) ;
#127 = CALENDAR_DATE ( 2020, 22, 12 ) ;
#128 = EDGE_CURVE ( 'NONE', #67, #60, #25, .T. ) ;
#129 = ADVANCED_FACE ( 'NONE', ( #88 ), #148, .F. ) ;
#130 = VERTEX_POINT ( 'NONE', #119 ) ;
#131 = DIRECTION ( 'NONE',  ( -1.000000000000000000, -0.000000000000000000, -0.000000000000000000 ) ) ;
#132 = PLANE ( 'NONE',  #101 ) ;
#133 = LOCAL_TIME ( 17, 10, 33.00000000000000000, #63 ) ;
#134 = CARTESIAN_POINT ( 'NONE',  ( -3.000000000000000000, 0.000000000000000000, 0.000000000000000000 ) ) ;
#135 = DIRECTION ( 'NONE',  ( 0.000000000000000000, 0.000000000000000000, 1.000000000000000000 ) ) ;
#136 = APPLICATION_PROTOCOL_DEFINITION ( 'international standard', 'config_control_design', 1994, #29 ) ;
#137 = AXIS2_PLACEMENT_3D ( 'NONE', #121, #17, #2 ) ;
#138 = DIRECTION ( 'NONE',  ( 1.000000000000000000, 0.000000000000000000, 0.000000000000000000 ) ) ;
#139 = APPLICATION_PROTOCOL_DEFINITION ( 'international standard', 'config_control_design', 1994, #155 ) ;
#140 = PRODUCT ( 'Q-AZHWP-25.4-980-M', 'Q-AZHWP-25.4-980-M', '', ( #6 ) ) ;
#141 = PERSON_AND_ORGANIZATION_ROLE ( 'design_owner' ) ;
#142 = EDGE_CURVE ( 'NONE', #60, #67, #11, .T. ) ;
#143 = CC_DESIGN_DATE_AND_TIME_ASSIGNMENT ( #153, #37, ( #80 ) ) ;
#144 = APPROVAL_PERSON_ORGANIZATION ( #49, #21, #53 ) ;
#145 = CLOSED_SHELL ( 'NONE', ( #162, #14, #103, #129 ) ) ;
#146 = DIRECTION ( 'NONE',  ( -1.000000000000000000, -0.000000000000000000, -0.000000000000000000 ) ) ;
#147 =( NAMED_UNIT ( * ) PLANE_ANGLE_UNIT ( ) SI_UNIT ( $, .RADIAN. ) );
#148 = PLANE ( 'NONE',  #23 ) ;
#149 = CYLINDRICAL_SURFACE ( 'NONE', #93, 15.00000000000000000 ) ;
#150 = CALENDAR_DATE ( 2020, 22, 12 ) ;
#151 = CC_DESIGN_APPROVAL ( #123, ( #169 ) ) ;
#152 = CALENDAR_DATE ( 2020, 22, 12 ) ;
#153 = DATE_AND_TIME ( #152, #133 ) ;
#154 = PERSON_AND_ORGANIZATION ( #109, #20 ) ;
#155 = APPLICATION_CONTEXT ( 'configuration controlled 3d designs of mechanical parts and assemblies' ) ;
#156 = CIRCLE ( 'NONE', #76, 15.00000000000000000 ) ;
#157 = ORIENTED_EDGE ( 'NONE', *, *, #85, .T. ) ;
#158 = ORIENTED_EDGE ( 'NONE', *, *, #128, .F. ) ;
#159 =( GEOMETRIC_REPRESENTATION_CONTEXT ( 3 ) GLOBAL_UNCERTAINTY_ASSIGNED_CONTEXT ( ( #43 ) ) GLOBAL_UNIT_ASSIGNED_CONTEXT ( ( #71, #147, #34 ) ) REPRESENTATION_CONTEXT ( 'NONE', 'WORKASPACE' ) );
#160 = CC_DESIGN_PERSON_AND_ORGANIZATION_ASSIGNMENT ( #73, #172, ( #66 ) ) ;
#161 = CARTESIAN_POINT ( 'NONE',  ( -3.000000000000000888, 12.69999999999999929, 0.000000000000000000 ) ) ;
#162 = ADVANCED_FACE ( 'NONE', ( #86 ), #19, .T. ) ;
#163 = DIRECTION ( 'NONE',  ( -0.000000000000000000, 0.000000000000000000, 1.000000000000000000 ) ) ;
#164 = CIRCLE ( 'NONE', #41, 15.00000000000000000 ) ;
#165 = CARTESIAN_POINT ( 'NONE',  ( -3.000000000000000000, 0.000000000000000000, 0.000000000000000000 ) ) ;
#166 = LOCAL_TIME ( 17, 10, 33.00000000000000000, #168 ) ;
#167 = DIRECTION ( 'NONE',  ( -1.000000000000000000, -0.000000000000000000, -0.000000000000000000 ) ) ;
#168 = COORDINATED_UNIVERSAL_TIME_OFFSET ( 8, 0, .AHEAD. ) ;
#169 = PRODUCT_DEFINITION ( 'UNKNOWN', '', #66, #3 ) ;
#170 = DATE_AND_TIME ( #127, #100 ) ;
#171 = DATE_AND_TIME ( #150, #28 ) ;
#172 = PERSON_AND_ORGANIZATION_ROLE ( 'design_supplier' ) ;
#173 = LOCAL_TIME ( 17, 10, 33.00000000000000000, #36 ) ;
#174 = CC_DESIGN_SECURITY_CLASSIFICATION ( #80, ( #66 ) ) ;
#175 = EDGE_CURVE ( 'NONE', #60, #130, #108, .T. ) ;
ENDSEC;
END-ISO-10303-21;
